www.roksi.com.ua

 

 

 

Бесконечность

Создание сайтов

Жизнь - это бесконечная дорога к совершенствованию

E-mail: roksi.com.ua@ukr.net

icq: 139781372   

139781372

Удача

Мы оказываем полный спектр рекламных услуг: разработка логотипов и фирменных стилей, изготовление и размещение наружной рекламы, полноцветная печать, создание сайтов и сопутствующей полиграфической продукции, веб дизайн, информационное и техническое сопровождение проектов, продвижение в поисковых системах и социальных сетях. Благодаря современному взгляду на дизайн, продуманному подходу к юзабилити, грамотной оптимизации сайтов, использованию актуальных решений и разработок, профессионализму наших специалистов мы гарантируем высокое качество реализации проектов.

Крематорий - "Маленькая девочка со взглядом волчицы"

 
   Am          D     Fmaj             Am
Маленькая девочка со взглядом волчицы,
           D    Fmaj      Am
Я тоже когда-то был самоубийцей.
           D  Fmaj              Am    F
Я тоже лежал в окрававленной ванне,
            Am G          Am
И молча вкушал  дым марихуаны.

Ты видишь, как мирно пасутся коровы,
И как лучезарны хрустальные горы.
Мы вырвем столбы, мы отменим границы.
О, маленькая девочка со взглядом волчицы...

E---------0---1-----------1---0-----------0---1----------1---3-------3---3h5p3|
B---0-1-3-------1-1---------1---2---0-1-3-------1-1--------1-----3------------|
G-2---------2---2---2-2-----2---2-2---------2---2---2-2----2---4---4---4------|
D-----------2-------3---3-------------------2-------3---3------5---5---5------|
A-0---------------3-----------0----------------------------------5-------5----|
E---------0---1-------1-------------------0---1-------1------3-------3--------|

-5-------5-------  
---5-5-----5-5---  
---5---5---5---5-  
-------7-------7-
-----7-------7---
-5-------5------- 
       D ...
Спи сладким сном, не помни о прошлом.
Дом, где жила ты, пуст и заброшен.
И мхом обрастут плиты гробницы
Маленькой девочки со взглядом волчицы...

 

Основная задача любого сайта – это привлечение посетителей, формирование у них постоянного интереса и лояльности. Дизайн сайта во многом определяет имидж компании, поскольку именно он создает первое впечатление. Грамотная верстка и оптимизация сайта позволят сайту быстро загружаться и занимать первые позиции в поисковиках Google и Yandex. В обязанности заказчика входит четкое определение задач сайта, видение дизайна, а реализацией этих задач (стили заголовков и текста, расположение блоков и врезок, картинок и логотипов, списков, таблиц и т. д.) пусть займутся наши профессиональные дизайнеры. Хорошо и грамотно оформленный сайт психологически располагает посетителя к совершению покупки, либо к коммуникации с владельцами. У нас в «Рокси» грамотные, гармоничные, понятные, продвинутые и недорогие сайты! :)

 

 

 

"Roksi" - cоздание сайтов, веб дизайн